Le Forum Des Elèves à Mumu

Forum des cours de guitare de Gerard Muller sur Pontarlier
 
AccueilRechercherS'enregistrerConnexion

Partagez
 

 A SAVOIR ABSOLUMENT !!! cf Mumu

Aller en bas 
AuteurMessage
JohnMcLoïc
Admin
JohnMcLoïc

Nombre de messages : 364
Age : 41
Date et heure du cours de gratte : Souvent mercredi 19h-21h
Date d'inscription : 04/06/2006

A SAVOIR ABSOLUMENT !!! cf Mumu Empty
MessageSujet: A SAVOIR ABSOLUMENT !!! cf Mumu   A SAVOIR ABSOLUMENT !!! cf Mumu Icon_minitimeJeu 14 Sep - 0:10

"Pour pouvoir jouer à plusieurs le B-A BA c'est le blues, alors faut que tout le monde connaisse cette grille" Mumu



G7|G7|G7|G7|
C7|C7|G7|G7|
D7|C7|G7|D7|


Voilà les positions des accords

G7 C7 D7
E||--3----3----5----||
B||--3----5----7----||
G||--4----3----5----||
D||--3----5----7----||
A||--5----3----5----||
E||--3--------------||

Le D7 peut se faire également comme ça :

E||-------||
B||--3----||
G||--5----||
D||--4----||
A||--5----||
E||-------||


Et une position de la gamme pour improviser

E||----------------------------------3--6--||
B||---------------------------3--6--------||
G||--------------------3--5----------------||
D||--------------3--5----------------------||
A||--------3--5----------------------------||
E||--3--6--------------------|--------------||

Tu pourrais poster Mumu la prochaine fois Cool

Et pendant qu'on y est, allez voir là bas si j'y suis :
https://mumuguitare.forumpro.fr/viewtopic.forum?t=57

_________________
"La musique cest du bruit qui pense" (Victor Hugo)
Revenir en haut Aller en bas
https://mumuguitare.forumpro.fr
 
A SAVOIR ABSOLUMENT !!! cf Mumu
Revenir en haut 
Page 1 sur 1
 Sujets similaires
-
» [info] 15 choses à savoir absolument sur les twins !
» ABSOLUMENT PATRICK BRUEL
» *mumu*
» Cherche a savoir si quelqu'un vend une MPD24 ou mpd 32
» pour walker et choruser

Permission de ce forum:Vous ne pouvez pas répondre aux sujets dans ce forum
Le Forum Des Elèves à Mumu :: Aide Musicale :: L'officiel des cours de gratte (Plans, Riffs, Grilles , Accords, Playback...)-
Sauter vers: