Le Forum Des Elèves à Mumu

Forum des cours de guitare de Gerard Muller sur Pontarlier
 
AccueilFAQRechercherS'enregistrerMembresGroupesConnexion

Partagez | 
 

 Les positions d'Accords

Aller en bas 
AuteurMessage
JohnMcLoïc
Admin
avatar

Nombre de messages : 364
Age : 40
Date et heure du cours de gratte : Souvent mercredi 19h-21h
Date d'inscription : 04/06/2006

MessageSujet: Les positions d'Accords   Jeu 14 Sep - 0:37

Voic un endroit ou on va répértorier les positions des accords fréquements utilisés,
vous pouvez demander ici si un accord vous pose problème ou que vous n'avez pas la position

Je fais volontairement abstraction de toute théorie (ne me remerciez pas) mais n'oubliez pas d'aller faire un tour ici pour tout bien comprendre pirat : http://mumuguitare.forumpro.fr/viewforum.forum?f=7

Pour changer d'accord, si on connait une position, il faut juste faire la meme à un endroit différent du manche en se basant sur la note de la 1ere ou 2eme corde



Les accords majeurs:


Position sur la corde de E (la plus grosse)

Dans l'ordre : G D A E

E||--3----10----5----0----||
B||--3----10----5----0----||
G||--4----11----6----1----||
D||--5----12----7----2----||
A||--5----12----7----2----||
E||-3---10---5---0----||

Il faut partir de la note qui est sur la 1ere corde pour avoir le nom de l'accord


Position sur la corde de A :


Dans l'ordre : G D A E

E||--10----5----0----7----||
B||--12----7----2----9----||
G||--12----7----2----9----||
D||--12----7----2----9----||
A||-10---5---0---7----||
E||----------------------------||

_________________
"La musique cest du bruit qui pense" (Victor Hugo)


Dernière édition par le Jeu 14 Sep - 0:48, édité 1 fois
Revenir en haut Aller en bas
Voir le profil de l'utilisateur http://mumuguitare.forumpro.fr
JohnMcLoïc
Admin
avatar

Nombre de messages : 364
Age : 40
Date et heure du cours de gratte : Souvent mercredi 19h-21h
Date d'inscription : 04/06/2006

MessageSujet: Re: Les positions d'Accords   Jeu 14 Sep - 0:43

Les positions d'accords mineurs :

Sur la 1ère corde (E) :

Dans l'ordre : Fm Am Bbm Em

E||--1----5----6----12----||
B||--1----5----6----12----||
G||--1----5----6----12----||
D||--3----7----8----14----||
A||--3----7----8----14----||
E||-1---5---6---12----||

Sur la 2ème corde (A) :


Fm Am Bbm Em
E||--8-----12----1----7----||
B||--9-----13----2----8----||
G||--10----14---3----9----||
D||--10----14---3----9----||
A||-8----12---1---7----||
E||------------------------||

_________________
"La musique cest du bruit qui pense" (Victor Hugo)
Revenir en haut Aller en bas
Voir le profil de l'utilisateur http://mumuguitare.forumpro.fr
 
Les positions d'Accords
Revenir en haut 
Page 1 sur 1
 Sujets similaires
-
» Accords standard en open tuning
» [jazz] Théorie (notations d'accords)
» Editeur de tablatures et d'accords en ligne
» besoin d'éclaircissement SVP
» Open G mineur

Permission de ce forum:Vous ne pouvez pas répondre aux sujets dans ce forum
Le Forum Des Elèves à Mumu :: Aide Musicale :: Plans,répètes, exercices, grilles...-
Sauter vers: