Le Forum Des Elèves à Mumu

Forum des cours de guitare de Gerard Muller sur Pontarlier
 
AccueilFAQRechercherS'enregistrerMembresGroupesConnexion

Partagez | 
 

 Comment poster une tablature sur le forum

Aller en bas 
AuteurMessage
JohnMcLoïc
Admin
avatar

Nombre de messages : 364
Age : 40
Date et heure du cours de gratte : Souvent mercredi 19h-21h
Date d'inscription : 04/06/2006

MessageSujet: Comment poster une tablature sur le forum   Sam 19 Aoû - 16:30

Alors c'est très facile, il faut juste le logiciel Guitar Pro pirat

on ecrit avec le logiciel la tablature que l'on souhaite puis on va dans "Fichier" puis "Exporter" et choisir "ASCII TAB"

ensuite il faut faire un copier/coller pour avoir un truc du genre : pig



E||--------------------------|--------------------------||
B||--------------------------|--------------------------||
G||--9--7--------------------|------------------7--9----||
D||--------10--9--7----------|--7--9--10----10----------||
A||--------------------10----|--------------------------||
E||--------------------------|--------------------------||


après on peut réajuster pour avoir un truc un peu plus lisible cyclops


E||--------------------------|---------------------------||
B||--------------------------|---------------------------||
G||--9--7-------------------|------------------7--9----||
D||--------10--9--7--------|--7--9--10---10--------||
A||--------------------10---|---------------------------||
E||--------------------------|---------------------------||



(le debut de la soupe au choux pour ceux qui n'auraient pas reconnus)

_________________
"La musique cest du bruit qui pense" (Victor Hugo)
Revenir en haut Aller en bas
Voir le profil de l'utilisateur http://mumuguitare.forumpro.fr
 
Comment poster une tablature sur le forum
Revenir en haut 
Page 1 sur 1
 Sujets similaires
-
» Comment poster un enregistrement mp3
» Comment puis-je poster mes mix ?
» Comment activer le HTML sur le forum ?
» Comment transposer une tablature en partition? Et vice versa
» Comment mettre une image sur le forum ?

Permission de ce forum:Vous ne pouvez pas répondre aux sujets dans ce forum
Le Forum Des Elèves à Mumu :: Aide Musicale :: Plans,répètes, exercices, grilles...-
Sauter vers: