Le Forum Des Elèves à Mumu

Forum des cours de guitare de Gerard Muller sur Pontarlier
 
AccueilFAQRechercherS'enregistrerMembresGroupesConnexion

Partagez | 
 

 Les positions d'accords à connaitre !!!

Aller en bas 
AuteurMessage
JohnMcLoïc
Admin
avatar

Nombre de messages : 364
Age : 39
Date et heure du cours de gratte : Souvent mercredi 19h-21h
Date d'inscription : 04/06/2006

MessageSujet: Les positions d'accords à connaitre !!!   Mar 14 Nov - 4:51

Les accords majeurs

en position ouverte (ce qui veut dire en haut du manche)

Dans l'ordre : do re mi fa sol la si


---------Do ------------------Ré-------------Mi


E||--0----------------|--2----------------|--0----------------|
B||--1----------------|--3----------------|--0----------------|
G||--0----------------|--2----------------|--1----------------|
D||--2----------------|--0----------------|--2----------------|
A||--3----------------|-------------------|--2----------------|
E||-------------------|-------------------|--0----------------|



---Fa------------------Sol------------------La

--1----------------|--3----------------|--0----------------|
--1----------------|--0----------------|--2----------------|
--2----------------|--0----------------|--2----------------|
--3----------------|--0----------------|--2----------------|
--3----------------|--2----------------|--0----------------|
--1----------------|--3----------------|-------------------|



---Si

--2----------------||
--4----------------||
--4----------------||
--4----------------||
--2----------------||
-------------------||




Les accords mineurs

En positions ouverte
(je ne met pas les positions de do mineur, fa mineur sol mineur et si mineur, ses positions existent mais elles sont tres rarement employées !!!)

Dans l'orde : ré mineur , mi mineur,la mineur


--------Rém--------------Mim---------------Lam


E||--1----------------|--0----------------|--0----------------||
B||--3----------------|--0----------------|--1----------------||
G||--2----------------|--0----------------|--2----------------||
D||--0----------------|--2----------------|--2----------------||
A||-------------------|--2----------------|--0----------------||
E||-------------------|--0----------------|-------------------||


Les positions en barrés : 2 positions par accord

Accords majeurs :

Dans l'ordre do do re re mi mi fa fa sol sol la la si si


-----------------------Do----------------------ré

E||--3----------------|--8-----------------|--5----------------|
B||--5----------------|--8-----------------|--7----------------|
G||--5----------------|--9-----------------|--7----------------|
D||--5----------------|--10----------------|--7----------------|
A||--3----------------|--10----------------|--5----------------|
E||-------------------|--8-----------------|-------------------|



------ré-------------------------------mi---------------------

--10----------------|--7----------------|--12----------------|
--10----------------|--9----------------|--12----------------|
--11----------------|--9----------------|--13----------------|
--12----------------|--9----------------|--14----------------|
--12----------------|--7----------------|--14----------------|
--10----------------|--0----------------|--12----------------|



-------------------Fa------------------------Sol----------

--8-----------------|--1----------------|--3----------------|
--10----------------|--1----------------|--3----------------|
--10----------------|--2----------------|--4----------------|
--10----------------|--3----------------|--5----------------|
--8-----------------|--3----------------|--5----------------|
--------------------|--1----------------|--3----------------|



--Sol----------------------------------La-----------------


--10----------------|--5----------------|--12----------------|
--12----------------|--5----------------|--14----------------|
--12----------------|--6----------------|--14----------------|
--12----------------|--7----------------|--14----------------|
--10----------------|--7----------------|--12----------------|
--------------------|--5----------------|--------------------|




-----------------Si-----------------


--2----------------|--7----------------||
--4----------------|--7----------------||
--4----------------|--8----------------||
--4----------------|--9----------------||
--2----------------|--9----------------||
-------------------|--7----------------||

Toujours en barré mais accords mineurs :

Dans l'ordre : dom dom rem rem mim mim fam fam solm solm lam lam sim sim


---------------------Dom--------------------Rém---------

E||--3----------------|--8-----------------|--5----------------|
B||--4----------------|--8-----------------|--6----------------|
G||--5----------------|--8-----------------|--7----------------|
D||--5----------------|--10----------------|--7----------------|
A||--3----------------|--10----------------|--5----------------|
E||-------------------|--8-----------------|-------------------|



---Rém----------------------------Mim----------------------


--10----------------|--7----------------|--12----------------|
--10----------------|--8----------------|--12----------------|
--10----------------|--9----------------|--12----------------|
--12----------------|--9----------------|--14----------------|
--12----------------|--7----------------|--14----------------|
--10----------------|-------------------|--12----------------|



-------------------Fam---------------------Solm


--8-----------------|--1----------------|--10----------------|
--9-----------------|--1----------------|--11----------------|
--10----------------|--1----------------|--12----------------|
--10----------------|--3----------------|--12----------------|
--8-----------------|--3----------------|--10----------------|
--------------------|--1----------------|--------------------|



--Solm--------------------------------Lam--------------



--3----------------|--12----------------|--5----------------|
--3----------------|--13----------------|--5----------------|
--3----------------|--14----------------|--5----------------|
--5----------------|--14----------------|--7----------------|
--5----------------|--12----------------|--7----------------|
--3----------------|--------------------|--5----------------|



-----------------Bm

--2----------------|--7----------------||
--3----------------|--7----------------||
--4----------------|--7----------------||
--4----------------|--9----------------||
--2----------------|--9----------------||
-------------------|--7----------------||

Imprimez les, apprenez les et apprenez les encore, coller les partout ( sur votre télé, sur le plafond en haut de votre lit, sur votre parebrise, sur la tete de votre femme etc...)

Et plus d'excuse pour la prochaine interro !!!

Na ! geek

_________________
"La musique cest du bruit qui pense" (Victor Hugo)
Revenir en haut Aller en bas
Voir le profil de l'utilisateur http://mumuguitare.forumpro.fr
 
Les positions d'accords à connaitre !!!
Revenir en haut 
Page 1 sur 1
 Sujets similaires
-
» [jazz] Théorie (notations d'accords)
» Accords standard en open tuning
» Editeur de tablatures et d'accords en ligne
» besoin d'éclaircissement SVP
» Open G mineur

Permission de ce forum:Vous ne pouvez pas répondre aux sujets dans ce forum
Le Forum Des Elèves à Mumu :: Aide Musicale :: L'officiel des cours de gratte (Plans, Riffs, Grilles , Accords, Playback...)-
Sauter vers: